ISO-10303-21;
HEADER;
/* Generated by software containing ST-Developer
 * from STEP Tools, Inc. (www.steptools.com) 
 */
/* OPTION: using custom renumber hook */

FILE_DESCRIPTION(
/* description */ ('STEP AP242',
'CAx-IF Rec.Pracs.---Representation and Presentation of Product Manufa
cturing Information (PMI)---4.0---2014-10-13',
'CAx-IF Rec.Pracs.---3D Tessellated Geometry---0.4---2014-09-14','2;1'),

/* implementation_level */ '2;1');

FILE_NAME(
/* name */ '6296a11013d5c035eb5d87f6',
/* time_stamp */ '2022-05-31T23:13:20+00:00',
/* author */ (''),
/* organization */ (''),
/* preprocessor_version */ 'ST-DEVELOPER v18.102',
/* originating_system */ '  ',
/* authorisation */ '  ');

FILE_SCHEMA (('AP242_MANAGED_MODEL_BASED_3D_ENGINEERING_MIM_LF { 1 0 10303 442 1 1 4 }'));
ENDSEC;

DATA;
#10=CONTEXT_DEPENDENT_SHAPE_REPRESENTATION(#14,#647);
#11=CONTEXT_DEPENDENT_SHAPE_REPRESENTATION(#15,#649);
#12=NEXT_ASSEMBLY_USAGE_OCCURRENCE('NAUO1','Part 2','Part 2',#650,#651,
'');
#13=NEXT_ASSEMBLY_USAGE_OCCURRENCE('NAUO2','DSCP078-E250',
'DSCP078-E250',#650,#652,'');
#14=(
REPRESENTATION_RELATIONSHIP(' ',' ',#381,#380)
REPRESENTATION_RELATIONSHIP_WITH_TRANSFORMATION(#16)
SHAPE_REPRESENTATION_RELATIONSHIP()
);
#15=(
REPRESENTATION_RELATIONSHIP(' ',' ',#382,#380)
REPRESENTATION_RELATIONSHIP_WITH_TRANSFORMATION(#17)
SHAPE_REPRESENTATION_RELATIONSHIP()
);
#16=ITEM_DEFINED_TRANSFORMATION(' ',' ',#383,#402);
#17=ITEM_DEFINED_TRANSFORMATION(' ',' ',#383,#421);
#18=SHAPE_REPRESENTATION_RELATIONSHIP('','',#381,#20);
#19=SHAPE_REPRESENTATION_RELATIONSHIP('','',#382,#21);
#20=ADVANCED_BREP_SHAPE_REPRESENTATION('',(#375),#637);
#21=ADVANCED_BREP_SHAPE_REPRESENTATION('',(#376),#638);
#22=PLANE('',#396);
#23=PLANE('',#397);
#24=PLANE('',#398);
#25=PLANE('',#399);
#26=PLANE('',#400);
#27=PLANE('',#401);
#28=PLANE('',#403);
#29=PLANE('',#416);
#30=PLANE('',#417);
#31=PLANE('',#418);
#32=PLANE('',#419);
#33=PLANE('',#420);
#34=CIRCLE('',#385,0.018288);
#35=CIRCLE('',#386,0.018288);
#36=CIRCLE('',#388,0.004318);
#37=CIRCLE('',#389,0.004318);
#38=CIRCLE('',#391,0.004318);
#39=CIRCLE('',#392,0.004318);
#40=CIRCLE('',#394,0.033274);
#41=CIRCLE('',#395,0.033274);
#42=CIRCLE('',#404,0.033274);
#43=CIRCLE('',#405,0.004318);
#44=CIRCLE('',#406,0.018288);
#45=CIRCLE('',#407,0.004318);
#46=CIRCLE('',#409,0.033274);
#47=CIRCLE('',#411,0.004318);
#48=CIRCLE('',#413,0.004318);
#49=CIRCLE('',#415,0.018288);
#50=ORIENTED_EDGE('',*,*,#146,.F.);
#51=ORIENTED_EDGE('',*,*,#147,.T.);
#52=ORIENTED_EDGE('',*,*,#148,.F.);
#53=ORIENTED_EDGE('',*,*,#149,.F.);
#54=ORIENTED_EDGE('',*,*,#150,.F.);
#55=ORIENTED_EDGE('',*,*,#151,.T.);
#56=ORIENTED_EDGE('',*,*,#152,.F.);
#57=ORIENTED_EDGE('',*,*,#153,.F.);
#58=ORIENTED_EDGE('',*,*,#154,.F.);
#59=ORIENTED_EDGE('',*,*,#155,.T.);
#60=ORIENTED_EDGE('',*,*,#156,.F.);
#61=ORIENTED_EDGE('',*,*,#157,.F.);
#62=ORIENTED_EDGE('',*,*,#158,.F.);
#63=ORIENTED_EDGE('',*,*,#159,.T.);
#64=ORIENTED_EDGE('',*,*,#160,.T.);
#65=ORIENTED_EDGE('',*,*,#161,.T.);
#66=ORIENTED_EDGE('',*,*,#162,.F.);
#67=ORIENTED_EDGE('',*,*,#158,.T.);
#68=ORIENTED_EDGE('',*,*,#163,.F.);
#69=ORIENTED_EDGE('',*,*,#151,.F.);
#70=ORIENTED_EDGE('',*,*,#164,.F.);
#71=ORIENTED_EDGE('',*,*,#147,.F.);
#72=ORIENTED_EDGE('',*,*,#165,.F.);
#73=ORIENTED_EDGE('',*,*,#155,.F.);
#74=ORIENTED_EDGE('',*,*,#160,.F.);
#75=ORIENTED_EDGE('',*,*,#166,.T.);
#76=ORIENTED_EDGE('',*,*,#157,.T.);
#77=ORIENTED_EDGE('',*,*,#167,.T.);
#78=ORIENTED_EDGE('',*,*,#149,.T.);
#79=ORIENTED_EDGE('',*,*,#168,.T.);
#80=ORIENTED_EDGE('',*,*,#153,.T.);
#81=ORIENTED_EDGE('',*,*,#169,.T.);
#82=ORIENTED_EDGE('',*,*,#152,.T.);
#83=ORIENTED_EDGE('',*,*,#163,.T.);
#84=ORIENTED_EDGE('',*,*,#161,.F.);
#85=ORIENTED_EDGE('',*,*,#169,.F.);
#86=ORIENTED_EDGE('',*,*,#148,.T.);
#87=ORIENTED_EDGE('',*,*,#164,.T.);
#88=ORIENTED_EDGE('',*,*,#150,.T.);
#89=ORIENTED_EDGE('',*,*,#168,.F.);
#90=ORIENTED_EDGE('',*,*,#146,.T.);
#91=ORIENTED_EDGE('',*,*,#167,.F.);
#92=ORIENTED_EDGE('',*,*,#156,.T.);
#93=ORIENTED_EDGE('',*,*,#165,.T.);
#94=ORIENTED_EDGE('',*,*,#154,.T.);
#95=ORIENTED_EDGE('',*,*,#166,.F.);
#96=ORIENTED_EDGE('',*,*,#159,.F.);
#97=ORIENTED_EDGE('',*,*,#162,.T.);
#98=ORIENTED_EDGE('',*,*,#170,.F.);
#99=ORIENTED_EDGE('',*,*,#171,.F.);
#100=ORIENTED_EDGE('',*,*,#172,.F.);
#101=ORIENTED_EDGE('',*,*,#173,.T.);
#102=ORIENTED_EDGE('',*,*,#174,.F.);
#103=ORIENTED_EDGE('',*,*,#175,.T.);
#104=ORIENTED_EDGE('',*,*,#176,.F.);
#105=ORIENTED_EDGE('',*,*,#177,.T.);
#106=ORIENTED_EDGE('',*,*,#178,.F.);
#107=ORIENTED_EDGE('',*,*,#179,.F.);
#108=ORIENTED_EDGE('',*,*,#180,.F.);
#109=ORIENTED_EDGE('',*,*,#171,.T.);
#110=ORIENTED_EDGE('',*,*,#181,.T.);
#111=ORIENTED_EDGE('',*,*,#182,.T.);
#112=ORIENTED_EDGE('',*,*,#177,.F.);
#113=ORIENTED_EDGE('',*,*,#183,.T.);
#114=ORIENTED_EDGE('',*,*,#184,.T.);
#115=ORIENTED_EDGE('',*,*,#185,.T.);
#116=ORIENTED_EDGE('',*,*,#173,.F.);
#117=ORIENTED_EDGE('',*,*,#186,.T.);
#118=ORIENTED_EDGE('',*,*,#187,.T.);
#119=ORIENTED_EDGE('',*,*,#188,.T.);
#120=ORIENTED_EDGE('',*,*,#175,.F.);
#121=ORIENTED_EDGE('',*,*,#189,.T.);
#122=ORIENTED_EDGE('',*,*,#179,.T.);
#123=ORIENTED_EDGE('',*,*,#190,.T.);
#124=ORIENTED_EDGE('',*,*,#181,.F.);
#125=ORIENTED_EDGE('',*,*,#191,.T.);
#126=ORIENTED_EDGE('',*,*,#187,.F.);
#127=ORIENTED_EDGE('',*,*,#192,.T.);
#128=ORIENTED_EDGE('',*,*,#184,.F.);
#129=ORIENTED_EDGE('',*,*,#193,.T.);
#130=ORIENTED_EDGE('',*,*,#172,.T.);
#131=ORIENTED_EDGE('',*,*,#180,.T.);
#132=ORIENTED_EDGE('',*,*,#193,.F.);
#133=ORIENTED_EDGE('',*,*,#186,.F.);
#134=ORIENTED_EDGE('',*,*,#174,.T.);
#135=ORIENTED_EDGE('',*,*,#185,.F.);
#136=ORIENTED_EDGE('',*,*,#192,.F.);
#137=ORIENTED_EDGE('',*,*,#189,.F.);
#138=ORIENTED_EDGE('',*,*,#191,.F.);
#139=ORIENTED_EDGE('',*,*,#183,.F.);
#140=ORIENTED_EDGE('',*,*,#176,.T.);
#141=ORIENTED_EDGE('',*,*,#188,.F.);
#142=ORIENTED_EDGE('',*,*,#190,.F.);
#143=ORIENTED_EDGE('',*,*,#178,.T.);
#144=ORIENTED_EDGE('',*,*,#170,.T.);
#145=ORIENTED_EDGE('',*,*,#182,.F.);
#146=EDGE_CURVE('',#194,#195,#226,.T.);
#147=EDGE_CURVE('',#194,#196,#34,.T.);
#148=EDGE_CURVE('',#197,#196,#227,.F.);
#149=EDGE_CURVE('',#195,#197,#35,.T.);
#150=EDGE_CURVE('',#198,#199,#228,.T.);
#151=EDGE_CURVE('',#198,#200,#36,.T.);
#152=EDGE_CURVE('',#201,#200,#229,.F.);
#153=EDGE_CURVE('',#199,#201,#37,.T.);
#154=EDGE_CURVE('',#202,#203,#230,.T.);
#155=EDGE_CURVE('',#202,#204,#38,.T.);
#156=EDGE_CURVE('',#205,#204,#231,.F.);
#157=EDGE_CURVE('',#203,#205,#39,.T.);
#158=EDGE_CURVE('',#206,#207,#40,.T.);
#159=EDGE_CURVE('',#206,#208,#232,.T.);
#160=EDGE_CURVE('',#208,#209,#41,.T.);
#161=EDGE_CURVE('',#209,#207,#233,.F.);
#162=EDGE_CURVE('',#206,#202,#234,.T.);
#163=EDGE_CURVE('',#200,#207,#235,.T.);
#164=EDGE_CURVE('',#196,#198,#236,.T.);
#165=EDGE_CURVE('',#204,#194,#237,.T.);
#166=EDGE_CURVE('',#208,#203,#238,.T.);
#167=EDGE_CURVE('',#205,#195,#239,.T.);
#168=EDGE_CURVE('',#197,#199,#240,.T.);
#169=EDGE_CURVE('',#201,#209,#241,.T.);
#170=EDGE_CURVE('',#210,#211,#242,.T.);
#171=EDGE_CURVE('',#212,#210,#42,.T.);
#172=EDGE_CURVE('',#213,#212,#243,.T.);
#173=EDGE_CURVE('',#213,#214,#43,.T.);
#174=EDGE_CURVE('',#215,#214,#244,.T.);
#175=EDGE_CURVE('',#215,#216,#44,.T.);
#176=EDGE_CURVE('',#217,#216,#245,.T.);
#177=EDGE_CURVE('',#217,#211,#45,.T.);
#178=EDGE_CURVE('',#218,#210,#246,.T.);
#179=EDGE_CURVE('',#219,#218,#46,.T.);
#180=EDGE_CURVE('',#212,#219,#247,.F.);
#181=EDGE_CURVE('',#220,#221,#47,.T.);
#182=EDGE_CURVE('',#221,#211,#248,.T.);
#183=EDGE_CURVE('',#217,#220,#249,.F.);
#184=EDGE_CURVE('',#222,#223,#48,.T.);
#185=EDGE_CURVE('',#223,#214,#250,.T.);
#186=EDGE_CURVE('',#213,#222,#251,.F.);
#187=EDGE_CURVE('',#224,#225,#49,.T.);
#188=EDGE_CURVE('',#225,#216,#252,.T.);
#189=EDGE_CURVE('',#215,#224,#253,.F.);
#190=EDGE_CURVE('',#218,#221,#254,.T.);
#191=EDGE_CURVE('',#220,#225,#255,.T.);
#192=EDGE_CURVE('',#224,#223,#256,.T.);
#193=EDGE_CURVE('',#222,#219,#257,.T.);
#194=VERTEX_POINT('',#535);
#195=VERTEX_POINT('',#536);
#196=VERTEX_POINT('',#538);
#197=VERTEX_POINT('',#540);
#198=VERTEX_POINT('',#544);
#199=VERTEX_POINT('',#545);
#200=VERTEX_POINT('',#547);
#201=VERTEX_POINT('',#549);
#202=VERTEX_POINT('',#553);
#203=VERTEX_POINT('',#554);
#204=VERTEX_POINT('',#556);
#205=VERTEX_POINT('',#558);
#206=VERTEX_POINT('',#562);
#207=VERTEX_POINT('',#563);
#208=VERTEX_POINT('',#565);
#209=VERTEX_POINT('',#567);
#210=VERTEX_POINT('',#586);
#211=VERTEX_POINT('',#587);
#212=VERTEX_POINT('',#589);
#213=VERTEX_POINT('',#591);
#214=VERTEX_POINT('',#593);
#215=VERTEX_POINT('',#595);
#216=VERTEX_POINT('',#597);
#217=VERTEX_POINT('',#599);
#218=VERTEX_POINT('',#603);
#219=VERTEX_POINT('',#605);
#220=VERTEX_POINT('',#609);
#221=VERTEX_POINT('',#610);
#222=VERTEX_POINT('',#615);
#223=VERTEX_POINT('',#616);
#224=VERTEX_POINT('',#621);
#225=VERTEX_POINT('',#622);
#226=LINE('',#534,#258);
#227=LINE('',#539,#259);
#228=LINE('',#543,#260);
#229=LINE('',#548,#261);
#230=LINE('',#552,#262);
#231=LINE('',#557,#263);
#232=LINE('',#564,#264);
#233=LINE('',#568,#265);
#234=LINE('',#570,#266);
#235=LINE('',#571,#267);
#236=LINE('',#572,#268);
#237=LINE('',#573,#269);
#238=LINE('',#575,#270);
#239=LINE('',#576,#271);
#240=LINE('',#577,#272);
#241=LINE('',#578,#273);
#242=LINE('',#585,#274);
#243=LINE('',#590,#275);
#244=LINE('',#594,#276);
#245=LINE('',#598,#277);
#246=LINE('',#602,#278);
#247=LINE('',#606,#279);
#248=LINE('',#611,#280);
#249=LINE('',#612,#281);
#250=LINE('',#617,#282);
#251=LINE('',#618,#283);
#252=LINE('',#623,#284);
#253=LINE('',#624,#285);
#254=LINE('',#626,#286);
#255=LINE('',#627,#287);
#256=LINE('',#628,#288);
#257=LINE('',#629,#289);
#258=VECTOR('',#426,1.);
#259=VECTOR('',#429,1.);
#260=VECTOR('',#434,1.);
#261=VECTOR('',#437,1.);
#262=VECTOR('',#442,1.);
#263=VECTOR('',#445,1.);
#264=VECTOR('',#452,1.);
#265=VECTOR('',#455,1.);
#266=VECTOR('',#458,1.);
#267=VECTOR('',#459,1.);
#268=VECTOR('',#460,1.);
#269=VECTOR('',#461,1.);
#270=VECTOR('',#464,1.);
#271=VECTOR('',#465,1.);
#272=VECTOR('',#466,1.);
#273=VECTOR('',#467,1.);
#274=VECTOR('',#480,1.);
#275=VECTOR('',#483,1.);
#276=VECTOR('',#486,1.);
#277=VECTOR('',#489,1.);
#278=VECTOR('',#494,1.);
#279=VECTOR('',#497,1.);
#280=VECTOR('',#502,1.);
#281=VECTOR('',#503,1.);
#282=VECTOR('',#508,1.);
#283=VECTOR('',#509,1.);
#284=VECTOR('',#514,1.);
#285=VECTOR('',#515,1.);
#286=VECTOR('',#518,1.);
#287=VECTOR('',#519,1.);
#288=VECTOR('',#520,1.);
#289=VECTOR('',#521,1.);
#290=EDGE_LOOP('',(#50,#51,#52,#53));
#291=EDGE_LOOP('',(#54,#55,#56,#57));
#292=EDGE_LOOP('',(#58,#59,#60,#61));
#293=EDGE_LOOP('',(#62,#63,#64,#65));
#294=EDGE_LOOP('',(#66,#67,#68,#69,#70,#71,#72,#73));
#295=EDGE_LOOP('',(#74,#75,#76,#77,#78,#79,#80,#81));
#296=EDGE_LOOP('',(#82,#83,#84,#85));
#297=EDGE_LOOP('',(#86,#87,#88,#89));
#298=EDGE_LOOP('',(#90,#91,#92,#93));
#299=EDGE_LOOP('',(#94,#95,#96,#97));
#300=EDGE_LOOP('',(#98,#99,#100,#101,#102,#103,#104,#105));
#301=EDGE_LOOP('',(#106,#107,#108,#109));
#302=EDGE_LOOP('',(#110,#111,#112,#113));
#303=EDGE_LOOP('',(#114,#115,#116,#117));
#304=EDGE_LOOP('',(#118,#119,#120,#121));
#305=EDGE_LOOP('',(#122,#123,#124,#125,#126,#127,#128,#129));
#306=EDGE_LOOP('',(#130,#131,#132,#133));
#307=EDGE_LOOP('',(#134,#135,#136,#137));
#308=EDGE_LOOP('',(#138,#139,#140,#141));
#309=EDGE_LOOP('',(#142,#143,#144,#145));
#310=FACE_BOUND('',#290,.T.);
#311=FACE_BOUND('',#291,.T.);
#312=FACE_BOUND('',#292,.T.);
#313=FACE_BOUND('',#293,.T.);
#314=FACE_BOUND('',#294,.T.);
#315=FACE_BOUND('',#295,.T.);
#316=FACE_BOUND('',#296,.T.);
#317=FACE_BOUND('',#297,.T.);
#318=FACE_BOUND('',#298,.T.);
#319=FACE_BOUND('',#299,.T.);
#320=FACE_BOUND('',#300,.T.);
#321=FACE_BOUND('',#301,.T.);
#322=FACE_BOUND('',#302,.T.);
#323=FACE_BOUND('',#303,.T.);
#324=FACE_BOUND('',#304,.T.);
#325=FACE_BOUND('',#305,.T.);
#326=FACE_BOUND('',#306,.T.);
#327=FACE_BOUND('',#307,.T.);
#328=FACE_BOUND('',#308,.T.);
#329=FACE_BOUND('',#309,.T.);
#330=CYLINDRICAL_SURFACE('',#384,0.018288);
#331=CYLINDRICAL_SURFACE('',#387,0.004318);
#332=CYLINDRICAL_SURFACE('',#390,0.004318);
#333=CYLINDRICAL_SURFACE('',#393,0.033274);
#334=CYLINDRICAL_SURFACE('',#408,0.033274);
#335=CYLINDRICAL_SURFACE('',#410,0.004318);
#336=CYLINDRICAL_SURFACE('',#412,0.004318);
#337=CYLINDRICAL_SURFACE('',#414,0.018288);
#338=ADVANCED_FACE('',(#310),#330,.F.);
#339=ADVANCED_FACE('',(#311),#331,.F.);
#340=ADVANCED_FACE('',(#312),#332,.F.);
#341=ADVANCED_FACE('',(#313),#333,.T.);
#342=ADVANCED_FACE('',(#314),#22,.T.);
#343=ADVANCED_FACE('',(#315),#23,.F.);
#344=ADVANCED_FACE('',(#316),#24,.F.);
#345=ADVANCED_FACE('',(#317),#25,.F.);
#346=ADVANCED_FACE('',(#318),#26,.F.);
#347=ADVANCED_FACE('',(#319),#27,.F.);
#348=ADVANCED_FACE('',(#320),#28,.F.);
#349=ADVANCED_FACE('',(#321),#334,.T.);
#350=ADVANCED_FACE('',(#322),#335,.F.);
#351=ADVANCED_FACE('',(#323),#336,.F.);
#352=ADVANCED_FACE('',(#324),#337,.F.);
#353=ADVANCED_FACE('',(#325),#29,.T.);
#354=ADVANCED_FACE('',(#326),#30,.T.);
#355=ADVANCED_FACE('',(#327),#31,.T.);
#356=ADVANCED_FACE('',(#328),#32,.T.);
#357=ADVANCED_FACE('',(#329),#33,.T.);
#358=CLOSED_SHELL('',(#338,#339,#340,#341,#342,#343,#344,#345,#346,#347));
#359=CLOSED_SHELL('',(#348,#349,#350,#351,#352,#353,#354,#355,#356,#357));
#360=STYLED_ITEM('',(#362),#375);
#361=STYLED_ITEM('',(#363),#376);
#362=PRESENTATION_STYLE_ASSIGNMENT((#364));
#363=PRESENTATION_STYLE_ASSIGNMENT((#365));
#364=SURFACE_STYLE_USAGE(.BOTH.,#366);
#365=SURFACE_STYLE_USAGE(.BOTH.,#367);
#366=SURFACE_SIDE_STYLE('',(#368));
#367=SURFACE_SIDE_STYLE('',(#369));
#368=SURFACE_STYLE_FILL_AREA(#370);
#369=SURFACE_STYLE_FILL_AREA(#371);
#370=FILL_AREA_STYLE('',(#372));
#371=FILL_AREA_STYLE('',(#373));
#372=FILL_AREA_STYLE_COLOUR('',#374);
#373=FILL_AREA_STYLE_COLOUR('',#374);
#374=COLOUR_RGB('',0.498039215686275,0.498039215686275,0.498039215686275);
#375=MANIFOLD_SOLID_BREP('Part 2',#358);
#376=MANIFOLD_SOLID_BREP('DSCP078-E250',#359);
#377=SHAPE_DEFINITION_REPRESENTATION(#645,#380);
#378=SHAPE_DEFINITION_REPRESENTATION(#646,#381);
#379=SHAPE_DEFINITION_REPRESENTATION(#648,#382);
#380=SHAPE_REPRESENTATION('P078 set',(#383,#402,#421),#636);
#381=SHAPE_REPRESENTATION('Part 2',(#383),#637);
#382=SHAPE_REPRESENTATION('DSCP078-E250',(#383),#638);
#383=AXIS2_PLACEMENT_3D('',#532,#422,#423);
#384=AXIS2_PLACEMENT_3D('',#533,#424,#425);
#385=AXIS2_PLACEMENT_3D('',#537,#427,#428);
#386=AXIS2_PLACEMENT_3D('',#541,#430,#431);
#387=AXIS2_PLACEMENT_3D('',#542,#432,#433);
#388=AXIS2_PLACEMENT_3D('',#546,#435,#436);
#389=AXIS2_PLACEMENT_3D('',#550,#438,#439);
#390=AXIS2_PLACEMENT_3D('',#551,#440,#441);
#391=AXIS2_PLACEMENT_3D('',#555,#443,#444);
#392=AXIS2_PLACEMENT_3D('',#559,#446,#447);
#393=AXIS2_PLACEMENT_3D('',#560,#448,#449);
#394=AXIS2_PLACEMENT_3D('',#561,#450,#451);
#395=AXIS2_PLACEMENT_3D('',#566,#453,#454);
#396=AXIS2_PLACEMENT_3D('',#569,#456,#457);
#397=AXIS2_PLACEMENT_3D('',#574,#462,#463);
#398=AXIS2_PLACEMENT_3D('',#579,#468,#469);
#399=AXIS2_PLACEMENT_3D('',#580,#470,#471);
#400=AXIS2_PLACEMENT_3D('',#581,#472,#473);
#401=AXIS2_PLACEMENT_3D('',#582,#474,#475);
#402=AXIS2_PLACEMENT_3D('',#583,#476,#477);
#403=AXIS2_PLACEMENT_3D('',#584,#478,#479);
#404=AXIS2_PLACEMENT_3D('',#588,#481,#482);
#405=AXIS2_PLACEMENT_3D('',#592,#484,#485);
#406=AXIS2_PLACEMENT_3D('',#596,#487,#488);
#407=AXIS2_PLACEMENT_3D('',#600,#490,#491);
#408=AXIS2_PLACEMENT_3D('',#601,#492,#493);
#409=AXIS2_PLACEMENT_3D('',#604,#495,#496);
#410=AXIS2_PLACEMENT_3D('',#607,#498,#499);
#411=AXIS2_PLACEMENT_3D('',#608,#500,#501);
#412=AXIS2_PLACEMENT_3D('',#613,#504,#505);
#413=AXIS2_PLACEMENT_3D('',#614,#506,#507);
#414=AXIS2_PLACEMENT_3D('',#619,#510,#511);
#415=AXIS2_PLACEMENT_3D('',#620,#512,#513);
#416=AXIS2_PLACEMENT_3D('',#625,#516,#517);
#417=AXIS2_PLACEMENT_3D('',#630,#522,#523);
#418=AXIS2_PLACEMENT_3D('',#631,#524,#525);
#419=AXIS2_PLACEMENT_3D('',#632,#526,#527);
#420=AXIS2_PLACEMENT_3D('',#633,#528,#529);
#421=AXIS2_PLACEMENT_3D('',#634,#530,#531);
#422=DIRECTION('',(0.,0.,1.));
#423=DIRECTION('',(1.,0.,0.));
#424=DIRECTION('',(0.,0.,-1.));
#425=DIRECTION('',(-1.,0.,0.));
#426=DIRECTION('',(0.,0.,-1.));
#427=DIRECTION('',(0.,0.,1.));
#428=DIRECTION('',(1.,0.,0.));
#429=DIRECTION('',(0.,0.,-1.));
#430=DIRECTION('',(0.,0.,1.));
#431=DIRECTION('',(1.,0.,0.));
#432=DIRECTION('',(0.,0.,-1.));
#433=DIRECTION('',(-1.,0.,0.));
#434=DIRECTION('',(0.,0.,-1.));
#435=DIRECTION('',(0.,0.,1.));
#436=DIRECTION('',(1.,0.,0.));
#437=DIRECTION('',(0.,0.,-1.));
#438=DIRECTION('',(0.,0.,1.));
#439=DIRECTION('',(1.,0.,0.));
#440=DIRECTION('',(0.,0.,-1.));
#441=DIRECTION('',(-1.,0.,0.));
#442=DIRECTION('',(0.,0.,-1.));
#443=DIRECTION('',(0.,0.,1.));
#444=DIRECTION('',(1.,0.,0.));
#445=DIRECTION('',(0.,0.,-1.));
#446=DIRECTION('',(0.,0.,1.));
#447=DIRECTION('',(1.,0.,0.));
#448=DIRECTION('',(0.,0.,-1.));
#449=DIRECTION('',(-1.,0.,0.));
#450=DIRECTION('',(0.,0.,1.));
#451=DIRECTION('',(1.,0.,0.));
#452=DIRECTION('',(0.,0.,-1.));
#453=DIRECTION('',(0.,0.,1.));
#454=DIRECTION('',(1.,0.,0.));
#455=DIRECTION('',(0.,0.,-1.));
#456=DIRECTION('',(0.,0.,1.));
#457=DIRECTION('',(1.,0.,0.));
#458=DIRECTION('',(5.97758899250643E-17,1.,0.));
#459=DIRECTION('',(5.97758899250643E-17,1.,0.));
#460=DIRECTION('',(5.97758899250643E-17,1.,0.));
#461=DIRECTION('',(5.97758899250643E-17,1.,0.));
#462=DIRECTION('',(0.,0.,1.));
#463=DIRECTION('',(1.,0.,0.));
#464=DIRECTION('',(5.97758899250643E-17,1.,0.));
#465=DIRECTION('',(5.97758899250643E-17,1.,0.));
#466=DIRECTION('',(5.97758899250643E-17,1.,0.));
#467=DIRECTION('',(5.97758899250643E-17,1.,0.));
#468=DIRECTION('',(1.,-5.97758899250643E-17,0.));
#469=DIRECTION('',(5.97758899250643E-17,1.,0.));
#470=DIRECTION('',(1.,-5.97758899250643E-17,0.));
#471=DIRECTION('',(5.97758899250643E-17,1.,0.));
#472=DIRECTION('',(1.,-5.97758899250643E-17,0.));
#473=DIRECTION('',(5.97758899250643E-17,1.,0.));
#474=DIRECTION('',(1.,-5.97758899250643E-17,0.));
#475=DIRECTION('',(5.97758899250643E-17,1.,0.));
#476=DIRECTION('',(0.,0.,1.));
#477=DIRECTION('',(1.,0.,0.));
#478=DIRECTION('',(0.,0.,1.));
#479=DIRECTION('',(1.,0.,0.));
#480=DIRECTION('',(5.97758899250643E-17,1.,0.));
#481=DIRECTION('',(0.,0.,1.));
#482=DIRECTION('',(1.,0.,0.));
#483=DIRECTION('',(5.97758899250643E-17,1.,0.));
#484=DIRECTION('',(0.,0.,1.));
#485=DIRECTION('',(1.,0.,0.));
#486=DIRECTION('',(5.97758899250643E-17,1.,0.));
#487=DIRECTION('',(0.,0.,1.));
#488=DIRECTION('',(1.,0.,0.));
#489=DIRECTION('',(5.97758899250643E-17,1.,0.));
#490=DIRECTION('',(0.,0.,1.));
#491=DIRECTION('',(1.,0.,0.));
#492=DIRECTION('',(0.,0.,-1.));
#493=DIRECTION('',(-1.,0.,0.));
#494=DIRECTION('',(0.,0.,-1.));
#495=DIRECTION('',(0.,0.,1.));
#496=DIRECTION('',(1.,0.,0.));
#497=DIRECTION('',(0.,0.,-1.));
#498=DIRECTION('',(0.,0.,-1.));
#499=DIRECTION('',(-1.,0.,0.));
#500=DIRECTION('',(0.,0.,1.));
#501=DIRECTION('',(1.,0.,0.));
#502=DIRECTION('',(0.,0.,-1.));
#503=DIRECTION('',(0.,0.,-1.));
#504=DIRECTION('',(0.,0.,-1.));
#505=DIRECTION('',(-1.,0.,0.));
#506=DIRECTION('',(0.,0.,1.));
#507=DIRECTION('',(1.,0.,0.));
#508=DIRECTION('',(0.,0.,-1.));
#509=DIRECTION('',(0.,0.,-1.));
#510=DIRECTION('',(0.,0.,-1.));
#511=DIRECTION('',(-1.,0.,0.));
#512=DIRECTION('',(0.,0.,1.));
#513=DIRECTION('',(1.,0.,0.));
#514=DIRECTION('',(0.,0.,-1.));
#515=DIRECTION('',(0.,0.,-1.));
#516=DIRECTION('',(0.,0.,1.));
#517=DIRECTION('',(1.,0.,0.));
#518=DIRECTION('',(5.97758899250643E-17,1.,0.));
#519=DIRECTION('',(5.97758899250643E-17,1.,0.));
#520=DIRECTION('',(5.97758899250643E-17,1.,0.));
#521=DIRECTION('',(5.97758899250643E-17,1.,0.));
#522=DIRECTION('',(1.,-5.97758899250643E-17,0.));
#523=DIRECTION('',(5.97758899250643E-17,1.,0.));
#524=DIRECTION('',(1.,-5.97758899250643E-17,0.));
#525=DIRECTION('',(5.97758899250643E-17,1.,0.));
#526=DIRECTION('',(1.,-5.97758899250643E-17,0.));
#527=DIRECTION('',(5.97758899250643E-17,1.,0.));
#528=DIRECTION('',(1.,-5.97758899250643E-17,0.));
#529=DIRECTION('',(5.97758899250643E-17,1.,0.));
#530=DIRECTION('',(0.,0.,1.));
#531=DIRECTION('',(1.,0.,0.));
#532=CARTESIAN_POINT('',(0.,0.,0.));
#533=CARTESIAN_POINT('',(0.,1.11981703314034E-18,0.00635));
#534=CARTESIAN_POINT('',(0.001524,-0.0182243893724865,0.00635));
#535=CARTESIAN_POINT('',(0.001524,-0.0182243893724865,0.00635));
#536=CARTESIAN_POINT('',(0.001524,-0.0182243893724865,0.));
#537=CARTESIAN_POINT('',(0.,1.11981703314034E-18,0.00635));
#538=CARTESIAN_POINT('',(0.001524,0.0182243893724865,0.00635));
#539=CARTESIAN_POINT('',(0.001524,0.0182243893724865,0.00635));
#540=CARTESIAN_POINT('',(0.001524,0.0182243893724865,0.));
#541=CARTESIAN_POINT('',(0.,1.11981703314034E-18,0.));
#542=CARTESIAN_POINT('',(0.,0.0254,0.00635));
#543=CARTESIAN_POINT('',(0.001524,0.021359882674971,0.00635));
#544=CARTESIAN_POINT('',(0.001524,0.021359882674971,0.00635));
#545=CARTESIAN_POINT('',(0.001524,0.021359882674971,0.));
#546=CARTESIAN_POINT('',(0.,0.0254,0.00635));
#547=CARTESIAN_POINT('',(0.001524,0.029440117325029,0.00635));
#548=CARTESIAN_POINT('',(0.001524,0.029440117325029,0.00635));
#549=CARTESIAN_POINT('',(0.001524,0.029440117325029,0.));
#550=CARTESIAN_POINT('',(0.,0.0254,0.));
#551=CARTESIAN_POINT('',(0.,-0.0254,0.00635));
#552=CARTESIAN_POINT('',(0.001524,-0.029440117325029,0.00635));
#553=CARTESIAN_POINT('',(0.001524,-0.029440117325029,0.00635));
#554=CARTESIAN_POINT('',(0.001524,-0.029440117325029,0.));
#555=CARTESIAN_POINT('',(0.,-0.0254,0.00635));
#556=CARTESIAN_POINT('',(0.001524,-0.021359882674971,0.00635));
#557=CARTESIAN_POINT('',(0.001524,-0.021359882674971,0.00635));
#558=CARTESIAN_POINT('',(0.001524,-0.021359882674971,0.));
#559=CARTESIAN_POINT('',(0.,-0.0254,0.));
#560=CARTESIAN_POINT('',(0.,2.03744487974145E-18,0.00635));
#561=CARTESIAN_POINT('',(0.,2.03744487974145E-18,0.00635));
#562=CARTESIAN_POINT('',(0.001524,-0.0332390809138881,0.00635));
#563=CARTESIAN_POINT('',(0.001524,0.0332390809138881,0.00635));
#564=CARTESIAN_POINT('',(0.001524,-0.0332390809138881,0.00635));
#565=CARTESIAN_POINT('',(0.001524,-0.0332390809138881,0.));
#566=CARTESIAN_POINT('',(0.,2.03744487974145E-18,0.));
#567=CARTESIAN_POINT('',(0.001524,0.0332390809138881,0.));
#568=CARTESIAN_POINT('',(0.001524,0.0332390809138881,0.00635));
#569=CARTESIAN_POINT('',(0.,0.,0.00635));
#570=CARTESIAN_POINT('',(0.001524,0.,0.00635));
#571=CARTESIAN_POINT('',(0.001524,0.,0.00635));
#572=CARTESIAN_POINT('',(0.001524,0.,0.00635));
#573=CARTESIAN_POINT('',(0.001524,0.,0.00635));
#574=CARTESIAN_POINT('',(0.,0.,0.));
#575=CARTESIAN_POINT('',(0.001524,-9.1098456245798E-20,0.));
#576=CARTESIAN_POINT('',(0.001524,-9.1098456245798E-20,0.));
#577=CARTESIAN_POINT('',(0.001524,-9.1098456245798E-20,0.));
#578=CARTESIAN_POINT('',(0.001524,-9.1098456245798E-20,0.));
#579=CARTESIAN_POINT('',(0.001524,0.,-0.115256655545607));
#580=CARTESIAN_POINT('',(0.001524,0.,-0.115256655545607));
#581=CARTESIAN_POINT('',(0.001524,0.,-0.115256655545607));
#582=CARTESIAN_POINT('',(0.001524,0.,-0.115256655545607));
#583=CARTESIAN_POINT('',(0.000348710484104231,9.29949092096649E-5,-0.00333749975305982));
#584=CARTESIAN_POINT('',(0.,0.,0.));
#585=CARTESIAN_POINT('',(-0.001524,9.1098456245798E-20,0.));
#586=CARTESIAN_POINT('',(-0.001524,-0.0332390809138881,0.));
#587=CARTESIAN_POINT('',(-0.001524,-0.029440117325029,0.));
#588=CARTESIAN_POINT('',(0.,2.03744487974145E-18,0.));
#589=CARTESIAN_POINT('',(-0.001524,0.0332390809138881,0.));
#590=CARTESIAN_POINT('',(-0.001524,9.1098456245798E-20,0.));
#591=CARTESIAN_POINT('',(-0.001524,0.029440117325029,0.));
#592=CARTESIAN_POINT('',(0.,0.0254,0.));
#593=CARTESIAN_POINT('',(-0.001524,0.021359882674971,0.));
#594=CARTESIAN_POINT('',(-0.001524,9.1098456245798E-20,0.));
#595=CARTESIAN_POINT('',(-0.001524,0.0182243893724865,0.));
#596=CARTESIAN_POINT('',(0.,1.11981703314034E-18,0.));
#597=CARTESIAN_POINT('',(-0.001524,-0.0182243893724865,0.));
#598=CARTESIAN_POINT('',(-0.001524,9.1098456245798E-20,0.));
#599=CARTESIAN_POINT('',(-0.001524,-0.021359882674971,0.));
#600=CARTESIAN_POINT('',(0.,-0.0254,0.));
#601=CARTESIAN_POINT('',(0.,2.03744487974145E-18,0.00635));
#602=CARTESIAN_POINT('',(-0.001524,-0.0332390809138881,0.00635));
#603=CARTESIAN_POINT('',(-0.001524,-0.0332390809138881,0.00635));
#604=CARTESIAN_POINT('',(0.,2.03744487974145E-18,0.00635));
#605=CARTESIAN_POINT('',(-0.001524,0.0332390809138881,0.00635));
#606=CARTESIAN_POINT('',(-0.001524,0.0332390809138881,0.00635));
#607=CARTESIAN_POINT('',(0.,-0.0254,0.00635));
#608=CARTESIAN_POINT('',(0.,-0.0254,0.00635));
#609=CARTESIAN_POINT('',(-0.001524,-0.021359882674971,0.00635));
#610=CARTESIAN_POINT('',(-0.001524,-0.029440117325029,0.00635));
#611=CARTESIAN_POINT('',(-0.001524,-0.029440117325029,0.00635));
#612=CARTESIAN_POINT('',(-0.001524,-0.021359882674971,0.00635));
#613=CARTESIAN_POINT('',(0.,0.0254,0.00635));
#614=CARTESIAN_POINT('',(0.,0.0254,0.00635));
#615=CARTESIAN_POINT('',(-0.001524,0.029440117325029,0.00635));
#616=CARTESIAN_POINT('',(-0.001524,0.021359882674971,0.00635));
#617=CARTESIAN_POINT('',(-0.001524,0.021359882674971,0.00635));
#618=CARTESIAN_POINT('',(-0.001524,0.029440117325029,0.00635));
#619=CARTESIAN_POINT('',(0.,1.11981703314034E-18,0.00635));
#620=CARTESIAN_POINT('',(0.,1.11981703314034E-18,0.00635));
#621=CARTESIAN_POINT('',(-0.001524,0.0182243893724865,0.00635));
#622=CARTESIAN_POINT('',(-0.001524,-0.0182243893724865,0.00635));
#623=CARTESIAN_POINT('',(-0.001524,-0.0182243893724865,0.00635));
#624=CARTESIAN_POINT('',(-0.001524,0.0182243893724865,0.00635));
#625=CARTESIAN_POINT('',(0.,0.,0.00635));
#626=CARTESIAN_POINT('',(-0.001524,0.,0.00635));
#627=CARTESIAN_POINT('',(-0.001524,0.,0.00635));
#628=CARTESIAN_POINT('',(-0.001524,0.,0.00635));
#629=CARTESIAN_POINT('',(-0.001524,0.,0.00635));
#630=CARTESIAN_POINT('',(-0.001524,0.,-0.115256655545607));
#631=CARTESIAN_POINT('',(-0.001524,0.,-0.115256655545607));
#632=CARTESIAN_POINT('',(-0.001524,0.,-0.115256655545607));
#633=CARTESIAN_POINT('',(-0.001524,0.,-0.115256655545607));
#634=CARTESIAN_POINT('',(0.000348710484104231,9.29949092096649E-5,-0.00333749975305982));
#635=MECHANICAL_DESIGN_GEOMETRIC_PRESENTATION_REPRESENTATION('',(#360,#361),
#636);
#636=(
GEOMETRIC_REPRESENTATION_CONTEXT(3)
GLOBAL_UNCERTAINTY_ASSIGNED_CONTEXT((#639))
GLOBAL_UNIT_ASSIGNED_CONTEXT((#644,#643,#642))
REPRESENTATION_CONTEXT('P078 set','TOP_LEVEL_ASSEMBLY_PART')
);
#637=(
GEOMETRIC_REPRESENTATION_CONTEXT(3)
GLOBAL_UNCERTAINTY_ASSIGNED_CONTEXT((#640))
GLOBAL_UNIT_ASSIGNED_CONTEXT((#644,#643,#642))
REPRESENTATION_CONTEXT('Part 2','COMPONENT_PART')
);
#638=(
GEOMETRIC_REPRESENTATION_CONTEXT(3)
GLOBAL_UNCERTAINTY_ASSIGNED_CONTEXT((#641))
GLOBAL_UNIT_ASSIGNED_CONTEXT((#644,#643,#642))
REPRESENTATION_CONTEXT('DSCP078-E250','COMPONENT_PART')
);
#639=UNCERTAINTY_MEASURE_WITH_UNIT(LENGTH_MEASURE(5.E-6),#644,
'DISTANCE_ACCURACY_VALUE','Maximum Tolerance applied to model');
#640=UNCERTAINTY_MEASURE_WITH_UNIT(LENGTH_MEASURE(5.E-6),#644,
'DISTANCE_ACCURACY_VALUE','Maximum Tolerance applied to model');
#641=UNCERTAINTY_MEASURE_WITH_UNIT(LENGTH_MEASURE(5.E-6),#644,
'DISTANCE_ACCURACY_VALUE','Maximum Tolerance applied to model');
#642=(
NAMED_UNIT(*)
SI_UNIT($,.STERADIAN.)
SOLID_ANGLE_UNIT()
);
#643=(
NAMED_UNIT(*)
PLANE_ANGLE_UNIT()
SI_UNIT($,.RADIAN.)
);
#644=(
LENGTH_UNIT()
NAMED_UNIT(*)
SI_UNIT($,.METRE.)
);
#645=PRODUCT_DEFINITION_SHAPE('','',#650);
#646=PRODUCT_DEFINITION_SHAPE('','',#651);
#647=PRODUCT_DEFINITION_SHAPE(' ','NAUO PRDDFN',#12);
#648=PRODUCT_DEFINITION_SHAPE('','',#652);
#649=PRODUCT_DEFINITION_SHAPE(' ','NAUO PRDDFN',#13);
#650=PRODUCT_DEFINITION('','',#656,#653);
#651=PRODUCT_DEFINITION('','',#657,#654);
#652=PRODUCT_DEFINITION('','',#658,#655);
#653=PRODUCT_DEFINITION_CONTEXT('',#672,'design');
#654=PRODUCT_DEFINITION_CONTEXT('',#672,'design');
#655=PRODUCT_DEFINITION_CONTEXT('',#672,'design');
#656=PRODUCT_DEFINITION_FORMATION_WITH_SPECIFIED_SOURCE('','',#662,
 .NOT_KNOWN.);
#657=PRODUCT_DEFINITION_FORMATION_WITH_SPECIFIED_SOURCE('','',#663,
 .NOT_KNOWN.);
#658=PRODUCT_DEFINITION_FORMATION_WITH_SPECIFIED_SOURCE('','',#664,
 .NOT_KNOWN.);
#659=PRODUCT_RELATED_PRODUCT_CATEGORY('','',(#662));
#660=PRODUCT_RELATED_PRODUCT_CATEGORY('','',(#663));
#661=PRODUCT_RELATED_PRODUCT_CATEGORY('','',(#664));
#662=PRODUCT('P078 set','P078 set','P078 set',(#668));
#663=PRODUCT('Part 2','Part 2','Part 2',(#669));
#664=PRODUCT('DSCP078-E250','DSCP078-E250','DSCP078-E250',(#670));
#665=PRODUCT_CATEGORY('','');
#666=PRODUCT_CATEGORY('','');
#667=PRODUCT_CATEGORY('','');
#668=PRODUCT_CONTEXT('',#672,'mechanical');
#669=PRODUCT_CONTEXT('',#672,'mechanical');
#670=PRODUCT_CONTEXT('',#672,'mechanical');
#671=APPLICATION_PROTOCOL_DEFINITION('international standard',
'ap242_managed_model_based_3d_engineering',2011,#672);
#672=APPLICATION_CONTEXT('managed model based 3d engineering');
ENDSEC;
END-ISO-10303-21;
